ISO-10303-21;
HEADER;
FILE_DESCRIPTION (( 'STEP AP203' ),
    '1' );
FILE_NAME ('Q-OZHWP-R2-20-1030-M.STEP',
    '2020-12-22T09:15:26',
    ( '' ),
    ( '' ),
    'SwSTEP 2.0',
    'SolidWorks 2020',
    '' );
FILE_SCHEMA (( 'CONFIG_CONTROL_DESIGN' ));
ENDSEC;

DATA;
#1 = EDGE_CURVE ( 'NONE', #78, #44, #157, .T. ) ;
#2 = CARTESIAN_POINT ( 'NONE',  ( -2.500000000000000444, 0.000000000000000000, 0.000000000000000000 ) ) ;
#3 = COORDINATED_UNIVERSAL_TIME_OFFSET ( 8, 0, .AHEAD. ) ;
#4 = EDGE_CURVE ( 'NONE', #174, #307, #142, .T. ) ;
#5 = LINE ( 'NONE', #226, #273 ) ;
#6 = CC_DESIGN_DATE_AND_TIME_ASSIGNMENT ( #222, #153, ( #99 ) ) ;
#7 = DIRECTION ( 'NONE',  ( 0.000000000000000000, 0.000000000000000000, 1.000000000000000000 ) ) ;
#8 = CYLINDRICAL_SURFACE ( 'NONE', #301, 10.00000000000000000 ) ;
#9 = CARTESIAN_POINT ( 'NONE',  ( 2.999999999999999112, 0.000000000000000000, 10.00000000000000000 ) ) ;
#10 = DIRECTION ( 'NONE',  ( -1.000000000000000000, 0.000000000000000000, -0.000000000000000000 ) ) ;
#11 = PRODUCT_DEFINITION_SHAPE ( 'NONE', 'NONE',  #99 ) ;
#12 = DIRECTION ( 'NONE',  ( -1.000000000000000000, -0.000000000000000000, -0.000000000000000000 ) ) ;
#13 = DIRECTION ( 'NONE',  ( 0.000000000000000000, 0.000000000000000000, 1.000000000000000000 ) ) ;
#14 = AXIS2_PLACEMENT_3D ( 'NONE', #261, #177, #105 ) ;
#15 = LOCAL_TIME ( 17, 15, 26.00000000000000000, #49 ) ;
#16 = CYLINDRICAL_SURFACE ( 'NONE', #208, 10.00000000000000000 ) ;
#17 = EDGE_CURVE ( 'NONE', #44, #149, #313, .T. ) ;
#18 = ORIENTED_EDGE ( 'NONE', *, *, #1, .T. ) ;
#19 = EDGE_LOOP ( 'NONE', ( #71, #132, #118, #332 ) ) ;
#20 = CARTESIAN_POINT ( 'NONE',  ( 0.000000000000000000, 0.000000000000000000, 0.000000000000000000 ) ) ;
#21 = CARTESIAN_POINT ( 'NONE',  ( -1.614212418857619014, 0.000000000000000000, 0.000000000000000000 ) ) ;
#22 = EDGE_LOOP ( 'NONE', ( #74, #246, #169, #172 ) ) ;
#23 = APPROVAL_STATUS ( 'not_yet_approved' ) ;
#24 = EDGE_CURVE ( 'NONE', #78, #98, #164, .T. ) ;
#25 = PERSON_AND_ORGANIZATION ( #294, #77 ) ;
#26 = DIRECTION ( 'NONE',  ( 0.000000000000000000, 0.000000000000000000, 1.000000000000000000 ) ) ;
#27 = DIRECTION ( 'NONE',  ( -1.000000000000000000, -0.000000000000000000, -0.000000000000000000 ) ) ;
#28 = CARTESIAN_POINT ( 'NONE',  ( 2.500000000000000888, 1.224646799147353256E-15, -10.00000000000000000 ) ) ;
#29 = EDGE_CURVE ( 'NONE', #145, #96, #200, .T. ) ;
#30 = PERSON_AND_ORGANIZATION_ROLE ( 'classification_officer' ) ;
#31 = CIRCLE ( 'NONE', #201, 12.69999999999999929 ) ;
#32 = EDGE_CURVE ( 'NONE', #149, #44, #94, .T. ) ;
#33 = AXIS2_PLACEMENT_3D ( 'NONE', #20, #93, #193 ) ;
#34 = CARTESIAN_POINT ( 'NONE',  ( 2.500000000000000888, 0.000000000000000000, 0.000000000000000000 ) ) ;
#35 = DIRECTION ( 'NONE',  ( -1.000000000000000000, -0.000000000000000000, -0.000000000000000000 ) ) ;
#36 = FACE_OUTER_BOUND ( 'NONE', #276, .T. ) ;
#37 = MANIFOLD_SOLID_BREP ( 'Ðý×', #126 ) ;
#38 =( LENGTH_UNIT ( ) NAMED_UNIT ( * ) SI_UNIT ( .MILLI., .METRE. ) );
#39 = DIRECTION ( 'NONE',  ( 0.000000000000000000, 0.000000000000000000, -1.000000000000000000 ) ) ;
#40 = AXIS2_PLACEMENT_3D ( 'NONE', #322, #236, #39 ) ;
#41 = ORIENTED_EDGE ( 'NONE', *, *, #64, .F. ) ;
#42 = FACE_OUTER_BOUND ( 'NONE', #227, .T. ) ;
#43 = ORIENTED_EDGE ( 'NONE', *, *, #83, .T. ) ;
#44 = VERTEX_POINT ( 'NONE', #28 ) ;
#45 = APPROVAL_ROLE ( '' ) ;
#46 = ORIENTED_EDGE ( 'NONE', *, *, #29, .F. ) ;
#47 = CIRCLE ( 'NONE', #334, 10.00000000000000000 ) ;
#48 = LOCAL_TIME ( 17, 15, 26.00000000000000000, #289 ) ;
#49 = COORDINATED_UNIVERSAL_TIME_OFFSET ( 8, 0, .AHEAD. ) ;
#50 = VERTEX_POINT ( 'NONE', #229 ) ;
#51 = APPROVAL_DATE_TIME ( #256, #123 ) ;
#52 = DIRECTION ( 'NONE',  ( -1.000000000000000000, -0.000000000000000000, -0.000000000000000000 ) ) ;
#53 = VECTOR ( 'NONE', #62, 1000.000000000000000 ) ;
#54 = CC_DESIGN_PERSON_AND_ORGANIZATION_ASSIGNMENT ( #119, #146, ( #271 ) ) ;
#55 = ORIENTED_EDGE ( 'NONE', *, *, #83, .F. ) ;
#56 = DATE_AND_TIME ( #155, #285 ) ;
#57 = DIRECTION ( 'NONE',  ( 0.000000000000000000, 0.000000000000000000, -1.000000000000000000 ) ) ;
#58 = EDGE_LOOP ( 'NONE', ( #221, #18, #223, #80 ) ) ;
#59 = CIRCLE ( 'NONE', #150, 12.69999999999999929 ) ;
#60 = CYLINDRICAL_SURFACE ( 'NONE', #202, 10.00000000000000000 ) ;
#61 = FACE_OUTER_BOUND ( 'NONE', #58, .T. ) ;
#62 = DIRECTION ( 'NONE',  ( -1.000000000000000000, -0.000000000000000000, -0.000000000000000000 ) ) ;
#63 = AXIS2_PLACEMENT_3D ( 'NONE', #159, #52, #282 ) ;
#64 = EDGE_CURVE ( 'NONE', #50, #249, #181, .T. ) ;
#65 = DIRECTION ( 'NONE',  ( 0.000000000000000000, 0.000000000000000000, 1.000000000000000000 ) ) ;
#66 = CARTESIAN_POINT ( 'NONE',  ( -3.000000000000000000, 1.555301434917138433E-15, -12.69999999999999929 ) ) ;
#67 = CC_DESIGN_PERSON_AND_ORGANIZATION_ASSIGNMENT ( #170, #279, ( #267 ) ) ;
#68 = DIRECTION ( 'NONE',  ( -0.000000000000000000, 0.000000000000000000, 1.000000000000000000 ) ) ;
#69 = ORIENTED_EDGE ( 'NONE', *, *, #1, .F. ) ;
#70 = CARTESIAN_POINT ( 'NONE',  ( 3.000000000000000000, 0.000000000000000000, 0.000000000000000000 ) ) ;
#71 = ORIENTED_EDGE ( 'NONE', *, *, #156, .F. ) ;
#72 = PERSON_AND_ORGANIZATION ( #294, #77 ) ;
#73 = PRODUCT_RELATED_PRODUCT_CATEGORY ( 'detail', '', ( #267 ) ) ;
#74 = ORIENTED_EDGE ( 'NONE', *, *, #171, .T. ) ;
#75 = APPLICATION_PROTOCOL_DEFINITION ( 'international standard', 'config_control_design', 1994, #176 ) ;
#76 = EDGE_LOOP ( 'NONE', ( #154, #46 ) ) ;
#77 = ORGANIZATION ( 'UNSPECIFIED', 'UNSPECIFIED', '' ) ;
#78 = VERTEX_POINT ( 'NONE', #232 ) ;
#79 = EDGE_CURVE ( 'NONE', #174, #50, #5, .T. ) ;
#80 = ORIENTED_EDGE ( 'NONE', *, *, #257, .F. ) ;
#81 = CIRCLE ( 'NONE', #103, 10.00000000000000000 ) ;
#82 = DIRECTION ( 'NONE',  ( -1.000000000000000000, -0.000000000000000000, -0.000000000000000000 ) ) ;
#83 = EDGE_CURVE ( 'NONE', #249, #50, #81, .T. ) ;
#84 = CARTESIAN_POINT ( 'NONE',  ( -1.614212418857619014, 0.000000000000000000, 10.00000000000000000 ) ) ;
#85 = FACE_OUTER_BOUND ( 'NONE', #274, .T. ) ;
#86 = LINE ( 'NONE', #112, #53 ) ;
#87 = AXIS2_PLACEMENT_3D ( 'NONE', #326, #10, #68 ) ;
#88 = PLANE ( 'NONE',  #194 ) ;
#89 = DIRECTION ( 'NONE',  ( -1.000000000000000000, -0.000000000000000000, -0.000000000000000000 ) ) ;
#90 = EDGE_LOOP ( 'NONE', ( #104, #92 ) ) ;
#91 = ORIENTED_EDGE ( 'NONE', *, *, #95, .T. ) ;
#92 = ORIENTED_EDGE ( 'NONE', *, *, #24, .T. ) ;
#93 = DIRECTION ( 'NONE',  ( 0.000000000000000000, 0.000000000000000000, 1.000000000000000000 ) ) ;
#94 = CIRCLE ( 'NONE', #63, 10.00000000000000000 ) ;
#95 = EDGE_CURVE ( 'NONE', #230, #306, #31, .T. ) ;
#96 = VERTEX_POINT ( 'NONE', #239 ) ;
#97 = CALENDAR_DATE ( 2020, 22, 12 ) ;
#98 = VERTEX_POINT ( 'NONE', #9 ) ;
#99 = PRODUCT_DEFINITION ( 'UNKNOWN', '', #271, #212 ) ;
#100 = PERSON_AND_ORGANIZATION ( #294, #77 ) ;
#101 = DIRECTION ( 'NONE',  ( 1.000000000000000000, 0.000000000000000000, 0.000000000000000000 ) ) ;
#102 = APPROVAL_ROLE ( '' ) ;
#103 = AXIS2_PLACEMENT_3D ( 'NONE', #106, #335, #129 ) ;
#104 = ORIENTED_EDGE ( 'NONE', *, *, #241, .T. ) ;
#105 = DIRECTION ( 'NONE',  ( 0.000000000000000000, 0.000000000000000000, 1.000000000000000000 ) ) ;
#106 = CARTESIAN_POINT ( 'NONE',  ( -3.000000000000000444, 0.000000000000000000, 0.000000000000000000 ) ) ;
#107 = CARTESIAN_POINT ( 'NONE',  ( -1.614212418857619014, 0.000000000000000000, 0.000000000000000000 ) ) ;
#108 = EDGE_CURVE ( 'NONE', #306, #230, #59, .T. ) ;
#109 = CARTESIAN_POINT ( 'NONE',  ( -1.614212418857619014, 0.000000000000000000, 0.000000000000000000 ) ) ;
#110 = FACE_OUTER_BOUND ( 'NONE', #76, .T. ) ;
#111 = CARTESIAN_POINT ( 'NONE',  ( 3.000000000000000000, 1.555301434917138433E-15, -12.69999999999999929 ) ) ;
#112 = CARTESIAN_POINT ( 'NONE',  ( -1.614212418857619014, 0.000000000000000000, 12.69999999999999929 ) ) ;
#113 = DIRECTION ( 'NONE',  ( -1.000000000000000000, -0.000000000000000000, -0.000000000000000000 ) ) ;
#114 = AXIS2_PLACEMENT_3D ( 'NONE', #34, #204, #178 ) ;
#115 = CARTESIAN_POINT ( 'NONE',  ( 2.999999999999999112, 0.000000000000000000, 0.000000000000000000 ) ) ;
#116 = AXIS2_PLACEMENT_3D ( 'NONE', #109, #12, #218 ) ;
#117 = CARTESIAN_POINT ( 'NONE',  ( -1.614212418857619014, 0.000000000000000000, 10.00000000000000000 ) ) ;
#118 = ORIENTED_EDGE ( 'NONE', *, *, #210, .T. ) ;
#119 = PERSON_AND_ORGANIZATION ( #294, #77 ) ;
#120 = DIRECTION ( 'NONE',  ( -1.000000000000000000, -0.000000000000000000, -0.000000000000000000 ) ) ;
#121 = CIRCLE ( 'NONE', #263, 10.00000000000000000 ) ;
#122 = ORIENTED_EDGE ( 'NONE', *, *, #207, .F. ) ;
#123 = APPROVAL ( #23, 'UNSPECIFIED' ) ;
#124 = EDGE_LOOP ( 'NONE', ( #151, #209, #244, #43 ) ) ;
#125 = COORDINATED_UNIVERSAL_TIME_OFFSET ( 8, 0, .AHEAD. ) ;
#126 = CLOSED_SHELL ( 'NONE', ( #152, #134, #148, #243, #329, #127, #287, #215, #305, #163 ) ) ;
#127 = ADVANCED_FACE ( 'NONE', ( #135 ), #8, .F. ) ;
#128 = EDGE_LOOP ( 'NONE', ( #122, #206 ) ) ;
#129 = DIRECTION ( 'NONE',  ( 0.000000000000000000, 0.000000000000000000, 1.000000000000000000 ) ) ;
#130 = EDGE_LOOP ( 'NONE', ( #91, #198 ) ) ;
#131 = CALENDAR_DATE ( 2020, 22, 12 ) ;
#132 = ORIENTED_EDGE ( 'NONE', *, *, #29, .T. ) ;
#133 = UNCERTAINTY_MEASURE_WITH_UNIT (LENGTH_MEASURE( 1.000000000000000082E-05 ), #38, 'distance_accuracy_value', 'NONE');
#134 = ADVANCED_FACE ( 'NONE', ( #36 ), #186, .F. ) ;
#135 = FACE_OUTER_BOUND ( 'NONE', #124, .T. ) ;
#136 = VECTOR ( 'NONE', #255, 1000.000000000000000 ) ;
#137 = PLANE ( 'NONE',  #40 ) ;
#138 = CIRCLE ( 'NONE', #290, 12.69999999999999929 ) ;
#139 = DIRECTION ( 'NONE',  ( 0.000000000000000000, 0.000000000000000000, 1.000000000000000000 ) ) ;
#140 = CARTESIAN_POINT ( 'NONE',  ( -3.000000000000000000, 0.000000000000000000, 0.000000000000000000 ) ) ;
#141 = CARTESIAN_POINT ( 'NONE',  ( -3.000000000000000444, 0.000000000000000000, 10.00000000000000000 ) ) ;
#142 = CIRCLE ( 'NONE', #300, 10.00000000000000000 ) ;
#143 = DIRECTION ( 'NONE',  ( -1.000000000000000000, -0.000000000000000000, -0.000000000000000000 ) ) ;
#144 = ADVANCED_BREP_SHAPE_REPRESENTATION ( 'Q-OZHWP-R2-20-1030-M', ( #37, #33 ), #324 ) ;
#145 = VERTEX_POINT ( 'NONE', #111 ) ;
#146 = PERSON_AND_ORGANIZATION_ROLE ( 'creator' ) ;
#147 = FACE_OUTER_BOUND ( 'NONE', #22, .T. ) ;
#148 = ADVANCED_FACE ( 'NONE', ( #61 ), #60, .F. ) ;
#149 = VERTEX_POINT ( 'NONE', #162 ) ;
#150 = AXIS2_PLACEMENT_3D ( 'NONE', #140, #248, #270 ) ;
#151 = ORIENTED_EDGE ( 'NONE', *, *, #79, .F. ) ;
#152 = ADVANCED_FACE ( 'NONE', ( #147 ), #266, .T. ) ;
#153 = DATE_TIME_ROLE ( 'creation_date' ) ;
#154 = ORIENTED_EDGE ( 'NONE', *, *, #171, .F. ) ;
#155 = CALENDAR_DATE ( 2020, 22, 12 ) ;
#156 = EDGE_CURVE ( 'NONE', #145, #306, #318, .T. ) ;
#157 = LINE ( 'NONE', #312, #136 ) ;
#158 = ORIENTED_EDGE ( 'NONE', *, *, #17, .F. ) ;
#159 = CARTESIAN_POINT ( 'NONE',  ( 2.500000000000000888, 0.000000000000000000, 0.000000000000000000 ) ) ;
#160 = APPROVAL_PERSON_ORGANIZATION ( #199, #237, #333 ) ;
#161 = CC_DESIGN_APPROVAL ( #237, ( #99 ) ) ;
#162 = CARTESIAN_POINT ( 'NONE',  ( 2.500000000000000888, 0.000000000000000000, 10.00000000000000000 ) ) ;
#163 = ADVANCED_FACE ( 'NONE', ( #320 ), #88, .F. ) ;
#164 = CIRCLE ( 'NONE', #14, 10.00000000000000000 ) ;
#165 = CC_DESIGN_PERSON_AND_ORGANIZATION_ASSIGNMENT ( #100, #288, ( #271 ) ) ;
#166 = CARTESIAN_POINT ( 'NONE',  ( -3.000000000000000000, 0.000000000000000000, 12.69999999999999929 ) ) ;
#167 = ORIENTED_EDGE ( 'NONE', *, *, #32, .F. ) ;
#168 = DIRECTION ( 'NONE',  ( 0.000000000000000000, 0.000000000000000000, 1.000000000000000000 ) ) ;
#169 = ORIENTED_EDGE ( 'NONE', *, *, #95, .F. ) ;
#170 = PERSON_AND_ORGANIZATION ( #294, #77 ) ;
#171 = EDGE_CURVE ( 'NONE', #96, #145, #138, .T. ) ;
#172 = ORIENTED_EDGE ( 'NONE', *, *, #210, .F. ) ;
#173 = MECHANICAL_CONTEXT ( 'NONE', #176, 'mechanical' ) ;
#174 = VERTEX_POINT ( 'NONE', #304 ) ;
#175 = APPLICATION_PROTOCOL_DEFINITION ( 'international standard', 'config_control_design', 1994, #184 ) ;
#176 = APPLICATION_CONTEXT ( 'configuration controlled 3d designs of mechanical parts and assemblies' ) ;
#177 = DIRECTION ( 'NONE',  ( -1.000000000000000000, -0.000000000000000000, -0.000000000000000000 ) ) ;
#178 = DIRECTION ( 'NONE',  ( 0.000000000000000000, 0.000000000000000000, 1.000000000000000000 ) ) ;
#179 = SECURITY_CLASSIFICATION_LEVEL ( 'unclassified' ) ;
#180 = DIRECTION ( 'NONE',  ( -1.000000000000000000, -0.000000000000000000, -0.000000000000000000 ) ) ;
#181 = CIRCLE ( 'NONE', #251, 10.00000000000000000 ) ;
#182 = PERSON_AND_ORGANIZATION ( #294, #77 ) ;
#183 = VECTOR ( 'NONE', #35, 1000.000000000000000 ) ;
#184 = APPLICATION_CONTEXT ( 'configuration controlled 3d designs of mechanical parts and assemblies' ) ;
#185 = CARTESIAN_POINT ( 'NONE',  ( 2.500000000000000444, 10.00000000000000000, 0.000000000000000000 ) ) ;
#186 = CYLINDRICAL_SURFACE ( 'NONE', #116, 10.00000000000000000 ) ;
#187 = CARTESIAN_POINT ( 'NONE',  ( -1.614212418857619014, 0.000000000000000000, 0.000000000000000000 ) ) ;
#188 = LOCAL_TIME ( 17, 15, 26.00000000000000000, #302 ) ;
#189 = CARTESIAN_POINT ( 'NONE',  ( -2.500000000000000444, 10.00000000000000000, 0.000000000000000000 ) ) ;
#190 = CYLINDRICAL_SURFACE ( 'NONE', #308, 12.69999999999999929 ) ;
#191 = DIRECTION ( 'NONE',  ( -1.000000000000000000, -0.000000000000000000, -0.000000000000000000 ) ) ;
#192 = CC_DESIGN_PERSON_AND_ORGANIZATION_ASSIGNMENT ( #262, #30, ( #325 ) ) ;
#193 = DIRECTION ( 'NONE',  ( 1.000000000000000000, 0.000000000000000000, 0.000000000000000000 ) ) ;
#194 = AXIS2_PLACEMENT_3D ( 'NONE', #189, #295, #298 ) ;
#195 = CALENDAR_DATE ( 2020, 22, 12 ) ;
#196 = CARTESIAN_POINT ( 'NONE',  ( -2.500000000000000444, 0.000000000000000000, 0.000000000000000000 ) ) ;
#197 = EDGE_LOOP ( 'NONE', ( #55, #41 ) ) ;
#198 = ORIENTED_EDGE ( 'NONE', *, *, #108, .T. ) ;
#199 = PERSON_AND_ORGANIZATION ( #294, #77 ) ;
#200 = CIRCLE ( 'NONE', #284, 12.69999999999999929 ) ;
#201 = AXIS2_PLACEMENT_3D ( 'NONE', #278, #82, #317 ) ;
#202 = AXIS2_PLACEMENT_3D ( 'NONE', #233, #113, #7 ) ;
#203 = ORIENTED_EDGE ( 'NONE', *, *, #64, .T. ) ;
#204 = DIRECTION ( 'NONE',  ( -1.000000000000000000, -0.000000000000000000, -0.000000000000000000 ) ) ;
#205 = DATE_AND_TIME ( #131, #48 ) ;
#206 = ORIENTED_EDGE ( 'NONE', *, *, #4, .F. ) ;
#207 = EDGE_CURVE ( 'NONE', #307, #174, #47, .T. ) ;
#208 = AXIS2_PLACEMENT_3D ( 'NONE', #187, #296, #168 ) ;
#209 = ORIENTED_EDGE ( 'NONE', *, *, #4, .T. ) ;
#210 = EDGE_CURVE ( 'NONE', #96, #230, #86, .T. ) ;
#211 = CARTESIAN_POINT ( 'NONE',  ( -3.000000000000000444, 0.000000000000000000, 0.000000000000000000 ) ) ;
#212 = DESIGN_CONTEXT ( 'detailed design', #184, 'design' ) ;
#213 = DIRECTION ( 'NONE',  ( -1.000000000000000000, -0.000000000000000000, -0.000000000000000000 ) ) ;
#214 = DIRECTION ( 'NONE',  ( 0.000000000000000000, 0.000000000000000000, 1.000000000000000000 ) ) ;
#215 = ADVANCED_FACE ( 'NONE', ( #319 ), #190, .T. ) ;
#216 = FACE_BOUND ( 'NONE', #90, .T. ) ;
#217 = DIRECTION ( 'NONE',  ( -0.000000000000000000, 0.000000000000000000, 1.000000000000000000 ) ) ;
#218 = DIRECTION ( 'NONE',  ( 0.000000000000000000, 0.000000000000000000, 1.000000000000000000 ) ) ;
#219 = FACE_OUTER_BOUND ( 'NONE', #130, .T. ) ;
#220 = CC_DESIGN_DATE_AND_TIME_ASSIGNMENT ( #205, #265, ( #325 ) ) ;
#221 = ORIENTED_EDGE ( 'NONE', *, *, #24, .F. ) ;
#222 = DATE_AND_TIME ( #97, #188 ) ;
#223 = ORIENTED_EDGE ( 'NONE', *, *, #17, .T. ) ;
#224 = PERSON_AND_ORGANIZATION_ROLE ( 'creator' ) ;
#225 = ORIENTED_EDGE ( 'NONE', *, *, #32, .T. ) ;
#226 = CARTESIAN_POINT ( 'NONE',  ( -1.614212418857619014, 1.224646799147353256E-15, -10.00000000000000000 ) ) ;
#227 = EDGE_LOOP ( 'NONE', ( #167, #158 ) ) ;
#228 = ORIENTED_EDGE ( 'NONE', *, *, #241, .F. ) ;
#229 = CARTESIAN_POINT ( 'NONE',  ( -3.000000000000000444, 1.224646799147353256E-15, -10.00000000000000000 ) ) ;
#230 = VERTEX_POINT ( 'NONE', #166 ) ;
#231 = APPROVAL_STATUS ( 'not_yet_approved' ) ;
#232 = CARTESIAN_POINT ( 'NONE',  ( 2.999999999999999112, 1.224646799147353256E-15, -10.00000000000000000 ) ) ;
#233 = CARTESIAN_POINT ( 'NONE',  ( -1.614212418857619014, 0.000000000000000000, 0.000000000000000000 ) ) ;
#234 = AXIS2_PLACEMENT_3D ( 'NONE', #185, #238, #217 ) ;
#235 = CC_DESIGN_APPROVAL ( #123, ( #271 ) ) ;
#236 = DIRECTION ( 'NONE',  ( 1.000000000000000000, 0.000000000000000000, 0.000000000000000000 ) ) ;
#237 = APPROVAL ( #252, 'UNSPECIFIED' ) ;
#238 = DIRECTION ( 'NONE',  ( -1.000000000000000000, 0.000000000000000000, -0.000000000000000000 ) ) ;
#239 = CARTESIAN_POINT ( 'NONE',  ( 3.000000000000000000, 0.000000000000000000, 12.69999999999999929 ) ) ;
#240 = LINE ( 'NONE', #117, #314 ) ;
#241 = EDGE_CURVE ( 'NONE', #98, #78, #121, .T. ) ;
#242 = PLANE ( 'NONE',  #87 ) ;
#243 = ADVANCED_FACE ( 'NONE', ( #42 ), #245, .F. ) ;
#244 = ORIENTED_EDGE ( 'NONE', *, *, #254, .T. ) ;
#245 = PLANE ( 'NONE',  #234 ) ;
#246 = ORIENTED_EDGE ( 'NONE', *, *, #156, .T. ) ;
#247 =( NAMED_UNIT ( * ) PLANE_ANGLE_UNIT ( ) SI_UNIT ( $, .RADIAN. ) );
#248 = DIRECTION ( 'NONE',  ( -1.000000000000000000, -0.000000000000000000, -0.000000000000000000 ) ) ;
#249 = VERTEX_POINT ( 'NONE', #141 ) ;
#250 = APPROVAL ( #231, 'UNSPECIFIED' ) ;
#251 = AXIS2_PLACEMENT_3D ( 'NONE', #211, #260, #264 ) ;
#252 = APPROVAL_STATUS ( 'not_yet_approved' ) ;
#253 = ORIENTED_EDGE ( 'NONE', *, *, #207, .T. ) ;
#254 = EDGE_CURVE ( 'NONE', #307, #249, #240, .T. ) ;
#255 = DIRECTION ( 'NONE',  ( -1.000000000000000000, -0.000000000000000000, -0.000000000000000000 ) ) ;
#256 = DATE_AND_TIME ( #310, #330 ) ;
#257 = EDGE_CURVE ( 'NONE', #98, #149, #327, .T. ) ;
#258 = AXIS2_PLACEMENT_3D ( 'NONE', #107, #213, #139 ) ;
#259 = CC_DESIGN_APPROVAL ( #250, ( #325 ) ) ;
#260 = DIRECTION ( 'NONE',  ( -1.000000000000000000, -0.000000000000000000, -0.000000000000000000 ) ) ;
#261 = CARTESIAN_POINT ( 'NONE',  ( 2.999999999999999112, 0.000000000000000000, 0.000000000000000000 ) ) ;
#262 = PERSON_AND_ORGANIZATION ( #294, #77 ) ;
#263 = AXIS2_PLACEMENT_3D ( 'NONE', #115, #89, #269 ) ;
#264 = DIRECTION ( 'NONE',  ( 0.000000000000000000, 0.000000000000000000, 1.000000000000000000 ) ) ;
#265 = DATE_TIME_ROLE ( 'classification_date' ) ;
#266 = CYLINDRICAL_SURFACE ( 'NONE', #258, 12.69999999999999929 ) ;
#267 = PRODUCT ( 'Q-OZHWP-R2-20-1030-M', 'Q-OZHWP-R2-20-1030-M', '', ( #173 ) ) ;
#268 = DIRECTION ( 'NONE',  ( -1.000000000000000000, -0.000000000000000000, -0.000000000000000000 ) ) ;
#269 = DIRECTION ( 'NONE',  ( 0.000000000000000000, 0.000000000000000000, 1.000000000000000000 ) ) ;
#270 = DIRECTION ( 'NONE',  ( 0.000000000000000000, 0.000000000000000000, 1.000000000000000000 ) ) ;
#271 = PRODUCT_DEFINITION_FORMATION_WITH_SPECIFIED_SOURCE ( 'ANY', '', #267, .NOT_KNOWN. ) ;
#272 = CARTESIAN_POINT ( 'NONE',  ( -1.614212418857619014, 0.000000000000000000, 0.000000000000000000 ) ) ;
#273 = VECTOR ( 'NONE', #27, 1000.000000000000000 ) ;
#274 = EDGE_LOOP ( 'NONE', ( #69, #228, #328, #225 ) ) ;
#275 = VECTOR ( 'NONE', #292, 1000.000000000000000 ) ;
#276 = EDGE_LOOP ( 'NONE', ( #253, #286, #203, #303 ) ) ;
#277 =( NAMED_UNIT ( * ) SI_UNIT ( $, .STERADIAN. ) SOLID_ANGLE_UNIT ( ) );
#278 = CARTESIAN_POINT ( 'NONE',  ( -3.000000000000000000, 0.000000000000000000, 0.000000000000000000 ) ) ;
#279 = PERSON_AND_ORGANIZATION_ROLE ( 'design_owner' ) ;
#280 = CC_DESIGN_SECURITY_CLASSIFICATION ( #325, ( #271 ) ) ;
#281 = DATE_AND_TIME ( #195, #15 ) ;
#282 = DIRECTION ( 'NONE',  ( 0.000000000000000000, 0.000000000000000000, 1.000000000000000000 ) ) ;
#283 = APPROVAL_DATE_TIME ( #281, #237 ) ;
#284 = AXIS2_PLACEMENT_3D ( 'NONE', #316, #180, #26 ) ;
#285 = LOCAL_TIME ( 17, 15, 26.00000000000000000, #3 ) ;
#286 = ORIENTED_EDGE ( 'NONE', *, *, #79, .T. ) ;
#287 = ADVANCED_FACE ( 'NONE', ( #299, #219 ), #137, .F. ) ;
#288 = PERSON_AND_ORGANIZATION_ROLE ( 'design_supplier' ) ;
#289 = COORDINATED_UNIVERSAL_TIME_OFFSET ( 8, 0, .AHEAD. ) ;
#290 = AXIS2_PLACEMENT_3D ( 'NONE', #70, #268, #214 ) ;
#291 = SHAPE_DEFINITION_REPRESENTATION ( #11, #144 ) ;
#292 = DIRECTION ( 'NONE',  ( -1.000000000000000000, -0.000000000000000000, -0.000000000000000000 ) ) ;
#293 = DIRECTION ( 'NONE',  ( 0.000000000000000000, 0.000000000000000000, -1.000000000000000000 ) ) ;
#294 = PERSON ( 'UNSPECIFIED', 'UNSPECIFIED', 'UNSPECIFIED', ('UNSPECIFIED'), ('UNSPECIFIED'), ('UNSPECIFIED') ) ;
#295 = DIRECTION ( 'NONE',  ( 1.000000000000000000, 0.000000000000000000, 0.000000000000000000 ) ) ;
#296 = DIRECTION ( 'NONE',  ( -1.000000000000000000, -0.000000000000000000, -0.000000000000000000 ) ) ;
#297 = APPROVAL_PERSON_ORGANIZATION ( #25, #123, #45 ) ;
#298 = DIRECTION ( 'NONE',  ( 0.000000000000000000, 0.000000000000000000, -1.000000000000000000 ) ) ;
#299 = FACE_BOUND ( 'NONE', #197, .T. ) ;
#300 = AXIS2_PLACEMENT_3D ( 'NONE', #2, #101, #57 ) ;
#301 = AXIS2_PLACEMENT_3D ( 'NONE', #21, #120, #65 ) ;
#302 = COORDINATED_UNIVERSAL_TIME_OFFSET ( 8, 0, .AHEAD. ) ;
#303 = ORIENTED_EDGE ( 'NONE', *, *, #254, .F. ) ;
#304 = CARTESIAN_POINT ( 'NONE',  ( -2.500000000000000444, 1.224646799147353256E-15, -10.00000000000000000 ) ) ;
#305 = ADVANCED_FACE ( 'NONE', ( #110, #216 ), #242, .F. ) ;
#306 = VERTEX_POINT ( 'NONE', #66 ) ;
#307 = VERTEX_POINT ( 'NONE', #321 ) ;
#308 = AXIS2_PLACEMENT_3D ( 'NONE', #272, #143, #13 ) ;
#309 = CC_DESIGN_PERSON_AND_ORGANIZATION_ASSIGNMENT ( #72, #224, ( #99 ) ) ;
#310 = CALENDAR_DATE ( 2020, 22, 12 ) ;
#311 = APPROVAL_DATE_TIME ( #56, #250 ) ;
#312 = CARTESIAN_POINT ( 'NONE',  ( -1.614212418857619014, 1.224646799147353256E-15, -10.00000000000000000 ) ) ;
#313 = CIRCLE ( 'NONE', #114, 10.00000000000000000 ) ;
#314 = VECTOR ( 'NONE', #191, 1000.000000000000000 ) ;
#315 = APPROVAL_PERSON_ORGANIZATION ( #182, #250, #102 ) ;
#316 = CARTESIAN_POINT ( 'NONE',  ( 3.000000000000000000, 0.000000000000000000, 0.000000000000000000 ) ) ;
#317 = DIRECTION ( 'NONE',  ( 0.000000000000000000, 0.000000000000000000, 1.000000000000000000 ) ) ;
#318 = LINE ( 'NONE', #323, #275 ) ;
#319 = FACE_OUTER_BOUND ( 'NONE', #19, .T. ) ;
#320 = FACE_OUTER_BOUND ( 'NONE', #128, .T. ) ;
#321 = CARTESIAN_POINT ( 'NONE',  ( -2.500000000000000444, 0.000000000000000000, 10.00000000000000000 ) ) ;
#322 = CARTESIAN_POINT ( 'NONE',  ( -3.000000000000000000, 10.00000000000000000, 0.000000000000000000 ) ) ;
#323 = CARTESIAN_POINT ( 'NONE',  ( -1.614212418857619014, 1.555301434917138433E-15, -12.69999999999999929 ) ) ;
#324 =( GEOMETRIC_REPRESENTATION_CONTEXT ( 3 ) GLOBAL_UNCERTAINTY_ASSIGNED_CONTEXT ( ( #133 ) ) GLOBAL_UNIT_ASSIGNED_CONTEXT ( ( #38, #247, #277 ) ) REPRESENTATION_CONTEXT ( 'NONE', 'WORKASPACE' ) );
#325 = SECURITY_CLASSIFICATION ( '', '', #179 ) ;
#326 = CARTESIAN_POINT ( 'NONE',  ( 2.999999999999999112, 12.69999999999999929, 0.000000000000000000 ) ) ;
#327 = LINE ( 'NONE', #84, #183 ) ;
#328 = ORIENTED_EDGE ( 'NONE', *, *, #257, .T. ) ;
#329 = ADVANCED_FACE ( 'NONE', ( #85 ), #16, .F. ) ;
#330 = LOCAL_TIME ( 17, 15, 26.00000000000000000, #125 ) ;
#331 = DIRECTION ( 'NONE',  ( 1.000000000000000000, 0.000000000000000000, 0.000000000000000000 ) ) ;
#332 = ORIENTED_EDGE ( 'NONE', *, *, #108, .F. ) ;
#333 = APPROVAL_ROLE ( '' ) ;
#334 = AXIS2_PLACEMENT_3D ( 'NONE', #196, #331, #293 ) ;
#335 = DIRECTION ( 'NONE',  ( -1.000000000000000000, -0.000000000000000000, -0.000000000000000000 ) ) ;
ENDSEC;
END-ISO-10303-21;
